Alice In Chains - Sludge Factory (var.8) Guitar tab download free or play online

Guitar tab for Sludge Factory (var.8) by Alice In Chains free download and read or play online: file .txt, 2.11 kb has 88 views and 0 downloads.

Download guitar tab "Sludge Factory (var.8)" (Alice In Chains)

Alice In Chains Band name
Sludge Factory Song name
Guitar tabs Tab type
2.11 kb File size
.TXT File type
88 views
0 downloads
 
Are you robot?

Sludge Factory (var.8) guitar tab read and play online

                    Sludge Factory by Alice In Chains
2 versions

From: Mike Byj (waltb@netcom.ca)

This song is cool, but it's kind of boring to play since it's only a few
chords and stuff, but I like the Bridge/Chorus I'm not sure if it's the
bridge or the chorus. Oh well here you go.

Tuning- Db,Ab,Db,Gb,Bb,Eb.

Main Riff : Play this 8 million times

1---X-X-X-0
2---X-X-X-3
3---X-X-X-2
4---1-3-X-0                   
5---1-3-X-0
6---1-3-X-0

Although there are a few times where you up rake the D5 chord.

Chorus/Bridge Riff: There are two guitars in this riff. I only figured
out one of them, but it sounds right anyways.

1----------------5-3---------------------
2----------3-4-5-----3-2-1---------------
3--------2-------------------------------
4--1-3-X-2-----------------5-4-3---------
5--1-3-X-0-----------------------3-3-4-5- 
6--1-3-X---------------------------------

then repeat from the A5 chord.

I'm too lazy to figure out the solo. Oh well. Waltb@netcom.ca


===============================================================================


From: Jag5tang@aol.com
The first solo part in Sludge Factory

e
b
g-10----10--12--11--10--------------10-----------------10-----10--10--10--10----12(b)----12(b)12--10
d-----12--------------------10--12--10-----------12--12-----12---------------------------------------------------12
a
e

e
b----------13(b)------13(b)---10--10#13(p)10
g--10--12--------------------------------------------12----12--13--12--10
d----------------------------------------------------------------------------------12--------10#12(p)10
a---------------------------------------------------------------------------------------------------------------12-11--10--
e

e
b
g----------------------------------------13--11------5----5--5(b)-5------5(b)-5-----5(b)-5--3
d--------------------------------------------------------------------------------------------------------5--5(b)5(b)5(b)
a--8--10--10(b)10(b)10(p)8--------------3--3-----3--------------3
e-----------------------------------8--8

e
b
g
d--3-----5/8x
a-----5--5/8x
e

I'm not the best at these tabs so if you could make the timing
for the guitar a little better that would be great.                    

Comments for guitar tab — Sludge Factory (var.8) (Alice In Chains)

Other Sludge Factory (var.8) by Alice In Chains tabs:

Last viewed Alice In Chains tabs: