Alice In Chains - Sludge Factory (var.12) Guitar tab download free or play online

Guitar tab for Sludge Factory (var.12) by Alice In Chains free download and read or play online: file .txt, 3.94 kb has 83 views and 0 downloads.

Download guitar tab "Sludge Factory (var.12)" (Alice In Chains)

Alice In Chains Band name
Sludge Factory Song name
Guitar tabs Tab type
3.94 kb File size
.TXT File type
83 views
0 downloads
 
Are you robot?

Sludge Factory (var.12) guitar tab read and play online

                    #----------------------------------PLEASE NOTE---------------------------------#
#This file is the author's own work and represents their interpretation of the #
#song. You may only use this file for private study, scholarship, or research. #
#------------------------------------------------------------------------------#

Sludge Factory Off Album "Alice in Chains"

Tuning Lower All Half Step & "Dropped D"


Intro/Main Riff 4/4
   F   G  D
Eb-1---3----------------------------
Bb-1---3--3-------------------------
Gb-1---3--2-------------------------
Db-1---3----------------------------
Ab-1---3----------------------------
Eb-1---3----------------------------
   1 + 2  3

Chorus 4/4
Eb----------------------------------
Bb------10-8------------------------
Gb-7-8-9----9-7-6-------------------
Db---------------5-4-3--------------
Ab----------------------------------
Eb----------------------------------
    
Solo

The Solo is in the Pentantonic Scale, in the Key of "D"

For Comments Email Me. Macdragon@pipeline.com


Date: Thu, 27 Mar 1997 21:22:52 +0100
From: "J.P.Juneau" 


SLUDGE FACTORY
ALICE IN CHAINS

(unplugged version)

I'm sending this tab because it's more complete than the one
thats now in the archive, and because i have nothing to do
right now...

This is the unplugged version of the song. It differs from the
album version only during the choruses, and in length. this on
is about three and a half minutes while the album version is
seven minutes long...
Personnaliy, i think it sounds better unplugged...

I'm pretty sure this tab is correct, because I watched and
rewatched how they played it on the unplugged....

It's in a dropped D tuning, 1/2 step lower.
that would be: Low to high, Db Ab Db Bb Eb.



Intro: 
                   not sure about the rhythm
            D5     /**********************
e:---------------------------------------------
B:-----------3------3-3-3--3----3-3-3--3-3-3---
G:-----------2------2-2-2--2----2-2-2--2-2-2---  X4
D:---1--3----0------0-0-0--0----0-0-0--0-0-0---
A:---1--1----0------0-0-0--0----0-0-0--0-0-0---
E:---1--1----0------0-0-0--0----0-0-0--0-0-0---

then         V 
e:----------------------
B:-----------3-~~~~-----
G:-----------2-~~~~-----
D:---1--3----0-~~~~-----
A:---1--1----0----------
E:---1--1----0----------



Verse:

just keep on playing the first part of the intro, but not as
hard. Play it smoother... And once in a while (in fact almost
all the time) , strum the D5      chord in a down stroke.

At the end of the verse, it goes like this:
               D5
e:---------------------
B:-------------3-------
G:-------------2-------   and go back to the intro.
D:---1--3--1---0-------
A:---1--1--1---0-------
E:---1--1--1---0-------



Verse 2:

Same as verse one, but at the end, it goes like this instead.
               A5
e:-----------------
B:-----------------
G:-----------------
D:---1--3--1---2---
A:---1--1--1---2---
E:---1--1--1---0---



Chorus 1:
   
  part A]

e:---0--0--0---0---0-----------------------------
B:---3--4--5--/10--8-----------------------------
G:-------------------7-6-5~~~--------------------
D:-----------------------------5-4-3~~~-------5--
A:--------------------------------------3-4h5----
E:-----------------------------------------------

  part B]

e:-------0--0--0-----------------------------------
B:-------3--4--5-----------------------------------
G:---2-----------5-4-2-4-4b-~~~--4-2------------0--
D:---2-------------------------------3~~~-----2----
A:---0------------------------------------0-3------
E:-------------------------------------------------

Then play part A]  X2.

Play the intro again...

Verse 3:
Same as verse 2


Chorus 2:

Part A]  X1
Part B]  X1
Part A]  X2
Part B]  X2
Part A]  X1


Then go back to the intro, and that's it.




Visit www.directtabs.com for more tabs.                    

Comments for guitar tab — Sludge Factory (var.12) (Alice In Chains)

Other Sludge Factory (var.12) by Alice In Chains tabs:

Last viewed Alice In Chains tabs: