Alice In Chains - Swing On This (var.4) Bass tab download free or play online

Bass tab for Swing On This (var.4) by Alice In Chains free download and read or play online: file .txt, 5.25 kb has 63 views and 0 downloads.

Download bass tab "Swing On This (var.4)" (Alice In Chains)

Alice In Chains Band name
Swing On This Song name
Bass tabs Tab type
5.25 kb File size
.TXT File type
63 views
0 downloads
 
Are you robot?

Swing On This (var.4) bass tab read and play online

                    (Bass - 3 versions)

 1є Versгo

Great walking jazz bassline by bassist Mike Inez. Kinda has a little
bit of a swing feel to it. Not of what time signature this is in.

G-|---------------------|-------------------------------|---------------------|
D-|---5--3--------------|-------------------------------|---------------------|
A-|----------4--3--1----|----------1-3--4h5~-4-3-1------|---------------------|
E-|-------------------3-|-0-1-2-3-------------------2-1-|---------------------|


G-|-------3-------------|-------------------------------|---------------------|
D-|-5--3-5--------------|-------------------------------|---------------------|
A-|----------4--3--1----|---------1-3--4h5~-4-3-1-------|---------------------|
E-|-------------------3-|-0-1-2-3-------------------2-1-|---------------------|

    Another of Mike Inez's great basslines off of Jar of Flies, you can
    play this one quite easily on a 4-string, though he may use a
    5-string for it, I don't think he uses the B string at all, except
    maybe in the chorus, where the bassline changes.  I haven't
    tabbed the chorus, if you know it, let me know.


===============================================================================

 2є Versгo

Notation:
^(n)  =bend up(till the n fret)
^(n)r =bend and release
/     =slide up
\     =slide down
^^^   =tremolo
^h    =hammer on
p^    =pull off

Tuning: Tune Down 1/2 step -From low to high-(Eb)(Ab)(Db)(Gb)

I think this song is plaied by Mike with a 5-strings bass....now I've got
my version,4-string bass:

BASS:
    (B7)
||------------------|----------------|------2----------|--------------------
||--4-2-------------|----------------|-4-2-4-----------|--------------------
||-----3-2----------|---2-3-2--------|--------3-2------|--2-2^(3)------------
||--------5-2-0-1-2-|-/5-----5-0-1-(2)----------5-0-1-2|/5------5p^2-0-1-(2)-

This part cotinue for all verse part.
The guitar plays the B7 chord,at time.....listen it on CD.
The Chorus is:


||------------------------
||------------------------
||----3-3^(4)-------------
||--3---------------------
||------------------------
||------------------------

The solo is a complete G pentatonic blues solo, so enjoy to do it yourself!!!!


===============================================================================

 3є Versгo


Don't Follow - Swing On This
Don't Follow has no bass in the first part so I included Swing On This.


         Don't Follow
G---||------|------||---------------------------------------------------
D---||*-----|-----*||---------------------------------------------------
A---||*--4--|-----*||---------------------------------------------------
E---||------|--4---||---------------------------------------------------


G-----------------------------------------------------------------------
D-----------------------------------------------------------------------
A-----------------------------------------------------------------------
E-----------------------------------------------------------------------


G-----------------------------------------------------------------------
D-----------------------------------------------------------------------
A-----------------------------------------------------------------------
E-----------------------------------------------------------------------


         Swing On This - Verse
G---||---0-----------------------------------------------------0--------
D---||*-----3-----------------------------------------------------3-----
A---||*--------4--3--1-----------------1--3--4--3--1--------------------
E---||------------------3--0--1--2--3-----------------0--1--2-----------



G---0--3----------------------------------------------------||----------
D----------------------------------------------------------*||----------
A---------4--3--1--------------1--3--3--3^--3--1-----------*||----------
E------------------0--1--2--3---------------------0--1--2---||----------


                  Chorus
G------------||-----------|----------------||---------------------------
D------------||*--------8\|--------8h9p8--*||---------------------------
A------------||*-----8----|-----8---------*||---------------------------
E------------||---6-------|--6-------------||---------------------------"
var fontTamanho = '12px'

function alteraFonte()
{
fontTamanho = (fontTamanho == '12px' ? '16px' : '12px'); 
document.getElementById("spCifra").style.font = fontTamanho
}
function montaEscala(pAcorde){
	window.open('escalas.html?acorde=' + pAcorde,'escala', 'width=650, height=150, toolbars=no, statusbar=no, location=no')
}





.smalltext{font-size: 8pt}
.nota {font-size: 7pt; color:black; background-color:white}
.border {border: 1px solid #3F6A82}
sda {font-family: arial; font-size: 10pt; color: blue}
.b {font-family: arial; font-size: 10pt}
.db {color: darkblue; font-weight:bold; cursor:hand}
pre {font-family:;font-size:10pt;} 



   
     
    
      
  




  
  Alice in Chains 
  Swing On This
  










 





 




   
    
         
            
            
            Print 
		  
            
            Send toe-amail


           
		   
		  
            Add toSongbook 

			
           
            


          more Alice in Chains, Swing On This tabs at GoogleTabs
        
		

	
		Songbook                    

Comments for bass tab — Swing On This (var.4) (Alice In Chains)

Other Swing On This (var.4) by Alice In Chains tabs:

Last viewed Alice In Chains tabs: